Site Updates

08-29-2014
Updated Live Audio Player

12-26-2012
Updated Photo Gallery

08-31-2012
Updated Tour Dates

Upcoming Gigs

EMF
Gigantic Indie All Dayer
Manchester
May 27, 2017

EMF
Let's Rock Bristol
Bristol
June 4, 2017

EMF
PennFest
July 21, 2017

Album Downloads

EMF

Schubert Dip Stigma Cha Cha Cha The Best of EMF: Epsom Mad Funkers BBC In Concert 30th January 1991 BBC In Concert 29th August 1992 Mark Goodier Sessions 17th November 1990 The Remixes

The Asbo Kid

The Asbo Death Cult Sessions Trouble On The Waltzers EP Named & Shamed Fighting On The Dancefloor - EP The Sus Laws

Amanda Ghost

Ghost Stories Singles & Remixes

Tabs

La Plage | Secrets | They're Here | Unbelievable (guitar | bass)

Secrets

E A D G B E (barre E)
x 2 2 1 x x

E A D G B E (barre G)
3 5 5 4 3 3

E A D G B E (barre F#)
2 4 4 3 2 2

E A D G B E (barre B)
7 9 9 8 7 7

Back to top

La Plage

barre C
E A D G B E
8 10 10 9 10 10

barre G minor
E A D G B E
8 8 10 X X X

barre A sharp
E A D G B E
6 8 8 7 6 6

barre B major
E A D G B E
7 9 9 8 6 6

intro playing order:
C, G minor (4x)

verse order:
C, G minor (4x) C, G minor, C, A sharp, C (2x)

chorus:
C, B, A sharp (depends on chorus)

playing only the E, A, and D strings (or just the A and D) should give a recognizably familiar sound.

Thanks to Jason Lewis!

Back to top

They're Here

This is based on the live version from the All Night Rave bootleg CD.

Transcribed by Colin Hooper
Please bare in mind that this is my first attempt at making tab!
Any lyrics written in the tab should be used as a rough guide.
Play this awesome opening riff twice..
|-----------------------------------------------------------
|------------------------------------------9/10--8----------
|--------------------------------------------------10--7----
|--------7--5-------------7--5---------------------------8--
|--------------7/8-5------------7/8-5-----------------------
|--------------------6-5--------------6-5-------------------
|-------------------
|-------------------
|-------------------
|--7--5-------------
|--------7/8-5------
|--------------6-5--

Ian doesn't play any guitar in the first verse so just relax for awhile or something.
After James has finished singing play the opening riff again.

Now to the second verse..

|---------------------------------------------------------
|---------------------------------------------------------
|-------------------------------7-7-7-7--7-7--------------
|-----------7-7-7-7--7-7-7-7----7-7-7-7--7-7--------------
|-----------7-7-7-7--7-7-7-7----5-5-5-5--5-5-8-5---5------
|-----------5-5-5-5--5-5-5-5---------------------6--------
I'm breathing..... Show my rage....

|---------------------------------------------------------
|---------------------------------------------------------
|-------------------------------7-7-7-7--7-7--------------
|-----------7-7-7-7--7-7-7-7----7-7-7-7--7-7--------------
|-----------7-7-7-7--7-7-7-7----5-5-5-5--5-5-8-5---5------
|-----------5-5-5-5--5-5-5-5---------------------6--------
Could it be..... Tell me now.....

And then the build up to the chorus....

|---------------------------------------------------------
|---------------------------------------------------------
|--3-3-3-3---9-9-9-9---6-6-6-6---12-12-12-12--------------
|--3-3-3-3---9-9-9-9---6-6-6-6---12-12-12-12--------------
|--1-1-1-1---7-7-7-7---4-4-4-4---10-10-10-10--------------
|---------------------------------------------------------

Chorus

|---------------------------------------------------------
|---------------------------------------------------------
|---------------------------------------------------------
|--4/6--6-6-xx-7----4/6--6-6-xx-7----4/6--6-6-xx-7--------
|--4/6--6-6-xx-7----4/6--6-6-xx-7----4/6--6-6-xx-7--------
|--2/4--4-4-xx-5----2/6--4-4-xx-5----2/6--4-4-xx-5-------- and so on..

They're here They're here around me

After the chorus repeat the opening riff again play the same sequence as in the second verse.

Here is the solo:

|----------------------12-12p10---12p10---12p10----
|----1-3-5-8-10-13-10----------10------10------10--
|--2-----------------------------------------------
|--------------------------------------------------
|--------------------------------------------------
|--------------------------------------------------
|-12-12p10-- 12p10----12p10------8-10-12-13-15-17----
|---------10------10-------10-10------------------15-
|----------------------------------------------------
|----------------------------------------------------
|----------------------------------------------------
|----------------------------------------------------
|-17-17p15---17p15---17p15----17-17p15---17p15---17p15---
|---------15------15------15----------15------15------15-
|--------------------------------------------------------
|--------------------------------------------------------
|--------------------------------------------------------
|--------------------------------------------------------

Then back to the chorus build up...

|---------------------------------------------------------
|---------------------------------------------------------
|--3-3-3-3---9-9-9-9---6-6-6-6---12-12-12-12--------------
|--3-3-3-3---9-9-9-9---6-6-6-6---12-12-12-12--------------
|--1-1-1-1---7-7-7-7---4-4-4-4---10-10-10-10--------------
|---------------------------------------------------------

And if you see me staring.....

I'm unsure about the ending but it goes something like this:

|---11--9-8--9-8--9-11------11--9-8--9-8--9-11--
|-----------------------------------------------
|-----------------------------------------------
|-----------------------------------------------
|-------------------------------------------- --
|-----------------------------------------------
|--------------------------------------------
|--------------------------------------------
|--------------------------------------------
|---6--------6--------6--------6--------7*---
|---6--------6--------6--------6--------7----
|---4--------4--------4--------4--------5----

* let ring
h hammer
p pull off
/ slide

Back to top

Unbelievable (guitar)

* BASS INTRO * E---505050--55-5\---

* 1 * VERSES
end of verse
A|---------|----------5-3-5----3-3-|---------5\\\\-|
E|---5-3-5-|--0-3-5----------5-----|--0-3-5--------|
A D E (Guit Power chords)

* 2 * CHORUSES (stoccato):
P P P P
G|--2----5---5---6677---5---5---3322-| Guitar
D|--2----5---5---6677---5---5---3322-|
A|--0----3-0-3-0-4455---3-0-3-0-1100-|

A|-------3-0-3-0-4455---3-0-3-0------| Bass
E|---5--5-----------------------6655-|

G|--2----5-5--6--7--------------------5-5--3--2-|
D|--2----5-5--6--7--------------------5-5--3--2-|
A|--0----303--4--5--------------------3030-1--0-|

Back to top

Unbelievable (bass)

Tuning: Eb,Ab,Db,Gb

Intro: 2 times
Gb|------------------|
Db|------------------|
Ab|-0-------5---7----|
Eb|------------------|

First Verse: 5 times
Gb|-------------------------------|
Db|-------------------------------|
Ab|----------------5--3-5-r-------|
Eb|-5--3-5-5-0-2-3----------0-2-3-|

Gb|-------------------|
Db|-------------------|
Ab|---------------5---|
Eb|-5--3-5--0-2-3-----|

First Chorus:
Gb|-----------------------------------------------------------|
Db|-----------------------------------------------------------|
Ab|--------303-03-3-4-5-5-5-303-----------303-4-5-5-5-5-303---|
Eb|-5--3-5----------------------6-6-5-5-5-------------------6-|

Second Verse: 5 times
Gb|-------------------------------|
Db|-------------------------------|
Ab|----------------5--3-5-r-------|
Eb|-5--3-5-5-0-2-3----------0-2-3-|

Gb|-------------------|
Db|-------------------|
Ab|---------------5---|
Eb|-5--3-5--0-2-3-----|

Second Chorus:
Gb|-------------------------------------------------------------|
Db|-------------------------------------------------------------|
Ab|--------303-03-3-4-5-5-5-303-----------303-4-5-5-5-5-303-----|
Eb|-5--3-5----------------------6-6-5-5-5-------------------6-6-|

Gb|-------------------------------------------------------|
Db|-------------------------------------------------------|
Ab|-------303-4-5-5-5-5-303-----------303-4-5-5-5-5-303---|
Eb|-5-5-5-------------------6-6-5-5-5-------------------6-|

Rap Break (Rest one bar):
Gb|-----------------------------------------------------------|
Db|-----------------------------------------------------------|
Ab|--------303-03-3-4-5-5-5-303-----------303-4-5-5-5-5-303---|
Eb|-5--3-5----------------------6-6-5-5-5-------------------6-|

Third Verse: 7 times
Gb|-------------------------------|
Db|-------------------------------|
Ab|----------------5--3-5-r-------|
Eb|-5--3-5-5-0-2-3----------0-2-3-|

Gb|-------------------|
Db|-------------------|
Ab|---------------5---|
Eb|-5--3-5--0-2-3-----|

Third Chorus:
Gb|---------------------------------------------------|
Db|---------------------------------------------------|
Ab|--------303-03-3-4-5-5-5-303-----------303-4-5-r---|
Eb|-5--3-5----------------------6-6-5-5-5-------------|

Gb|---------------------------------------------------|
Db|---------------------------------------------------|
Ab|--------303-03-3-4-5-5-5-303-----------303-4-5-r---|
Eb|-5--3-5----------------------6-6-5-5-5-------------|

Guitar Solo: Repeat 6 times
Gb|---------------------------------|-------------------------------|
Db|---------------------------------|*-----------------------------*|
Ab|--------303-03-3-4-5-5-5-303-----|*-------303-4-5-5-5-5-303-----*|
Eb|-5--3-5----------------------6-6-|--5-5-5-------------------6-6--|

End:
Gb|-------------------|
Db|-------------------|
Ab|-------303-4-5-r---|
Eb|-5-5-5-------------|

Back to top